RockCiclopedia

Musica => Strumenti Musicali => Tablature e accordi => Topic aperto da: nidaime-ssj3 - 25 Gennaio 2009, 21:38:47

Titolo: Tenacious D - History
Inserito da: nidaime-ssj3 - 25 Gennaio 2009, 21:38:47
scusate, ma come si dovrebbe leggere questo pezzo ( la parte con gli accordi ), intendo, come azzecco il tempo?





e------------------------------------------------:
B------------------------------------------------:
G-------------------------3-3-3-2-2-2-h-3-p-2-0--:
D-------------------------3-3-3-3-3-3---3---3-3--:
A--3-3-3-2-2-2-h-3-p-2-0-------------------------:
E--3-3-3-3-3-3---3---3-3-------------------------:

Em F F F F 
Tenacious D time, you mother ***er go *** yeah!

G G G G F F F F E E E E F F F F G G G G G G G G G 

e---------------------------------------------------:
B---------------------------------------------------:
G--7-7-7-9-9-9-7-7-7-12-11-9--5-5-5-7-7-7--7-5-4-2--:
D--0-0-0-0-0-0-0-0-0--0--0-0--0-0-0-0-0-0--0-0-0-0--:
A---------------------------------------------------:
E---------------------------------------------------:

D C
We ride with kings on mighty steeds across the Devil's plain.
D C G
We've walked with g's on Satan's cross he did not die in vain, no.
D
Kyle's fingers be silver, and Jack's voice then be gold.
C
So lest you think we're vain.
D C G
We know it's open mic night, but we don't care Tenacious D we reign.

D C G C D C G C D
We reign supreme. Oh God, Burrito Supreme and a Chicken Supreme,
C G C D C G C D
and a Nacho Supreme, yeah.
C G C D
Aaaaaaaahhhhhh, go now go now, Kyle Supreme.



Chords:
Em: 022000
F : XX3211
G : 320033
E : 022100
D : XX0232
C : X32010

[editato il titolo...troppo generico! - il Corvo]
Titolo: Re: problema di lettura
Inserito da: geekomo - 25 Gennaio 2009, 21:44:39
A me sembra che sia fatta un pò male... Dovresti cambiare accordi ad una velocità pazzesca :getlost:

Oppure ascolta la canzone e poi regolati su dove mettere gli accordi
Titolo: Re: problema di lettura
Inserito da: nidaime-ssj3 - 25 Gennaio 2009, 21:51:07
ehmmm
sono nidaime...
non il corvo...
non riesco a farle certe cose
Titolo: Re: problema di lettura
Inserito da: Skylab - 25 Gennaio 2009, 21:54:30
Dovresti cambiare accordi ad una velocità pazzesca :getlost:
Oppure ascolta la canzone e poi regolati su dove mettere gli accordi

ehmmm
sono nidaime...
non il corvo...
non riesco a farle certe cose

ti riferisci al cambio di accordi a velocità pazzesca o al "regolarti su dove cambiare accordo"?
No, perchè se è la seconda è relativamente preoccupante  :rotfl: :rotfl:
Titolo: Re: problema di lettura
Inserito da: il corvo - 26 Gennaio 2009, 00:01:51
Bene,domani devo alzarmi presto ma il nostro nida è in difficoltà. Non conosco la canzone ma vediamo se riusciamo a far qualcosa.

Allora gli accordi della canzone(intendo re,do,sol...) sono giusti...
Il riff iniziale in pratica

         
E||--------------------------------------------------------|
B||--/10--10-10-10-10-8--7-7-7-7-/10--10-10-10-10-8--7--7--|
G||--/11--11-11-11-11-9--7-7-7-7-/11--11-11-11-11-9--7--7--|
D||----0---0--0--0--0-0--0-0-0-0---0---0--0--0--0-0--0--0--|
A||--------------------------------------------------------|
E||--------------------------------------------------------|

 
-------------------------------------------|
--/8--8-8-8-8-8--7--5--3--3-3-3-3-5--7--7--|
--/9--9-9-9-9-9--7--5--4--4-4-4-4-5--7--7--|
---0--0-0-0-0-0--0--0--0--0-0-0-0-0--0--0--|
-------------------------------------------|
-------------------------------------------|

   
--------------------------------------------------------|
--/10--10-10-10-10-8--7-7-7-7-/10--10-10-10-10-8--7--7--|
--/11--11-11-11-11-9--7-7-7-7-/11--11-11-11-11-9--7--7--|
----0---0--0--0--0-0--0-0-0-0---0---0--0--0--0-0--0--0--|
--------------------------------------------------------|
--------------------------------------------------------|

   
-------------------------------------------||
--/8--8-8-8-8-8--7--5--3--3-3-3-3-5--7--7--||
--/9--9-9-9-9-9--7--5--4--4-4-4-4-5--7--7--||
---0--0-0-0-0-0--0--0--0--0-0-0-0-0--0--0--||
-------------------------------------------||
-------------------------------------------||

..per il cambio di accordi devi sentire la canzone. Altrimenti se usi il guitar pro ti allego il file...usalo è buono come file! ;)
Titolo: Re: Tenacious D - History
Inserito da: nidaime-ssj3 - 27 Gennaio 2009, 08:35:05
grazie  :cry: